Where The Heart Is

Compiled by Martin Grieben


INTRO          3/4                                    2/4
              G(6)         G            B(7)         Em
e|------------|0---0-------|7-----------|7-----------|--------|
B|--------0-3-|0---0-----3-|8---------8-|7--10-----7-|8-------|
G|------------|0-0---------|0-------0---|8-8-----8---|9-------|
D|------------|--------0---|0-----0-----|------------|9-------|
A|------------|------------|------------|------------|--------|
E|------------|3-----3-----|------------|7----7------|0-------|

VERSE 1
  4/4              2/4      4/4              3/4
  D  A/C# D/F#     G/H     D/A A/C# D/F#     Bm(7)     
e|2-------2-------|--------|2-------2-------|5---------0-|
B|3---2---3-------|0-------|3---2---3-------|3-------3---|
G|2---2---2-------|0-------|2---2---2-------|2-----------|
D|0---2---4-------|0-------|----2---4-------|------------|
A|----4-----------|2-------|0---4-----------|2-----------|
E|----------------|--------|----------------|------------|

CHORUS
  3/4                                    2/4
  Em7/9(add11) Gmaj7/A      G(6)         D
e|----5-------|2---5-------|0-----------|------------|
B|7-----------|3-----------|0---3-----3-|3-----------|
G|7-----------|4-----------|0-0-----0---|2-----------|
D|5-----------|------------|------------|0-----------|
A|7-----------|0-----------|------------|------------|
E|------------|------------|3-----3-----|------------|


VERSE 2
  4/4              2/4      4/4              3/4
  D  A/C# D/F#     G/H     D/A A/C# D/F#     Bm(7)     
e|2-------2-------|--------|2-------2-------|5---------0-|
B|3---2---3-------|0-------|3---2---3-------|3-------3---|
G|2---2---2-------|0-------|2---2---2-------|2-----------|
D|0---2---4-------|0-------|----2---4-------|------------|
A|----4-----------|2-------|0---4-----------|2-----------|
E|----------------|--------|----------------|------------|

CHORUS
  3/4
Em7/9(add11) Gmaj7/A      G(6)         D
e|----5-------|2---5-------|0-----------|------------|
B|7-----------|3-----------|0---3-----3-|3-----------|
G|7-----------|4-----------|0-0-----0---|2-----------|
D|5-----------|------------|------------|0-----------|
A|7-----------|0-----------|------------|------------|
E|------------|------------|3-----3-----|------------|

BRIDGE
  3/4
  A            D            F#7          Bm
e|------------|------------|------------|----------0-|
B|0---0-------|------------|3-2-3-----2-|--------3---|
G|--2-----2---|2---------2-|3-----------|4-----------|
D|2-----2---2-|0---0---0---|2-------2---|4-----------|
A|0---0-------|0-----0-----|------------|2-----------|
E|------------|------------|2-----2-----|------------|

  CHORUS
  3/4
  Em7/9(add11) Gmaj7/A      G(6)         D
e|----5-------|2---5-------|0-----------|------------|
B|7-----------|3-----------|0---3-----3-|3-------0-3-|
G|7-----------|4-----------|0-0-----0---|2-----------|
D|5-----------|------------|------------|0-----------|
A|7-----------|0-----------|------------|------------|
E|------------|------------|3-----3-----|------------|

  SOLO(=INTRO/VERSE/CHORUS): Harp
  3/4                                    2/4
  G(6)         G            B(7)         Em
e|0---0-------|7-----------|7-----------|--------|
B|0---0-----3-|8---------8-|7--10-----7-|8-------|
G|0-0---------|0-------0---|8-8-----8---|9-------|
D|--------0---|0-----0-----|------------|9-------|
A|------------|------------|------------|--------|
E|3-----3-----|------------|7----7------|0-------|

  4/4              2/4      4/4              3/4
  D  A/C# D/F#     G/H     D/A A/C# D/F#     Bm(7)     
e|2-------2-------|--------|2-------2-------|5---------0-|
B|3---2---3-------|----0---|3---2---3-------|3-------3---|
G|2---2---2-------|----0---|2---2---2-------|2-----------|
D|0---2---4-------|--0-----|----2---4-------|------------|
A|----4-----------|2-----2-|0---4-----------|2-----------|
E|----------------|--------|----------------|------------|

  3/4
  Em7/9(add11) Gmaj7/A      G(6)         D
e|----5------0|2---5-----0-|0-----------|--------0---|
B|7---------3-|3----------3|0---3-----3-|3---------3-|
G|7-----------|4-----------|0-0-----0---|2-----------|
D|5-----------|------------|------------|0-----------|
A|7-----------|0-----------|------------|------------|
E|------------|------------|3-----3-----|------------|

BRIDGE
  3/4
  A            D            F#7          Bm
e|------------|------------|------------|----------0-|
B|0---0-------|------------|3-2-3-----2-|--------3---|
G|--2-----2---|2---------2-|3-----------|4-----------|
D|2-----2---2-|0---0---0---|2-------2---|4-----------|
A|0---0-------|0-----0-----|------------|2-----------|
E|------------|------------|2-----2-----|------------|

  CHORUS
  3/4
  Em7/9(add11) Gmaj7/A      G(6)   D/F# 
e|----5-------|2---5-------|0-------0---|
B|7-----------|3-----------|0---3-------|
G|7-----------|4-----------|0-0-----2---|
D|5-----------|------------|------------|
A|7-----------|0-----------|------------|
E|------------|------------|3-----3-2---|

  3/4
  Em7/9(add11) Gmaj7/A      G(6)         D
e|----5-------|2---5-------|0-----------|------------|
B|7-----------|3-----------|0---3-----3-|3-------0-3-|
G|7-----------|4-----------|0-0-----0---|2-----------|
D|5-----------|------------|------------|0-----------|
A|7-----------|0-----------|------------|------------|
E|------------|------------|3-----3-----|------------|

CODA
  3/4
  G(6)         G            D
e|0---0-------|7-----------|2-----------|
B|0---0-----3-|8-----------|3-----------|
G|0-0---------|0-------7---|2-----------|
D|--------0---|0-----0-----|0-----------|
A|------------|------------|------------|
E|3-----3-----|------------|------------|


---------------------------------------------------------------------------

INTRO
| G(6) | G | B(7) | Em |


D     A/C#  D/F#        G/B
Maybe other streets are wider
D/A        A/C#   D/F#      Bm7
Than these narrow streets I know
         Em7/9(add11)         G/A
Still you find here, ties that bind here
         G          D
Where the heart is

D     A/C#  D/F#       G/B
Maybe other lights are brighter
D/A        A/C#         D/F#   Bm7
Than these streetlights row by row
     Em7/9(add11)     G/A
All I know is, this is home it's
         G          D
Where the heart is

     A              D
Maybe other grass is greener
F#7            Bm
And what if it is
   Em7/9(add11)        G/A
I belong here, right or wrong here's
         G          D
Where the heart is

SOLO(=INTRO/VERSE/CHORUS): Harp
| G(6) | G | B(7) | Em |
| D A/C# D/F# | G/B |
| D/A A/C# D/F# | Bm7 |
| Em7/9(add11) | G/A | G | D |


     A              D
Maybe other grass is greener
F#7            Bm
And what if it is
   Em7/9(add11)        G/A
I belong here, right or wrong here's
         G       
Where the heart is
D/F#  Em7/9(add11)      G/A
We'll fly here, it's so high here
         G        D
Where the heart is

CODA
| G(6) | G | D



> Back to Sproutnet